Il nous faut (Elisa Tovati & Tom Dice)

« Il nous faut » chanson interprétée par Elisa Tovati et Tom Dice et tirée de l’album « Le syndrome de Peter Pan » de Elisa Tovati sortie en 2012.

Chanson principalement en arpèges mais également avec des refrains en battements. La complexité réside dans la rythmique syncopée et un slide.

Attention la tablature tient compte de la rythmique. Il faut bien regarder le nombre de « – » entre 2 notes. Par exemple, 0 – – – 2 – 0 indique que la première notre est une noire (3 tirets) et la seconde note est une croche (1 tiret). 3 tirets pour une noire et 1 pour une croche parce que visuellement on voit un espacement double pour la noire par rapport à la croche. Sur une partition cela donnerait pour la première mesure :

Am

Les difficultés :

  • rythmique syncopée
  • le slide
  • les changement d’arpèges
  • les changements arpège / battements

Ces difficultés sont toutes relatives car c’est certainement la chanson que j’ai maitrisé le plus vite jusqu’à présent.

Comme le rythme est syncopé, je conseille de travailler avec un métronome en faisant sonner uniquement la première note des mesures.

Accords

Am          : x02210
G           : 320003
G*          : 300000
C           : x32010 
CM9/B       : x20010 
Em9(no 5)/D : x54030 (donnée par l'application iPhone "Reverse Chord Finder")
Em          : 022000
D           : xx0232

Remarque : le G* est une version simplifiée du G pour les arpèges.

Vidéo

Version « cosie » sur laquelle est basée la tablature.

http://www.youtube.com/watch?v=6SUbcFIKT4w

Autres belles reprises :

http://www.youtube.com/watch?v=c5uHMFyH9mo

http://www.youtube.com/watch?v=BJGCSwZbads

http://www.youtube.com/watch?v=9PuSORb1Q5o

http://www.youtube.com/watch?v=yrNdwtkxbzk (arpège au médiator)

http://www.youtube.com/watch?v=1ArMzPwBIhY (arpège à 2 doigts)

Tablature

La présentation de la tablature est un peu particulière. J’ai essayé de faire au mieux pour mettre tout ensemble : paroles, arpèges et battements.

Capo : 3
Tempo à la noire  : 170 (cela peut sembler rapide, mais pas de double croches)

Intro

    Am                G*                
E-|-----------------|-----------------| (x3)
B-|-------0---------|-------0---------|
G-|-----------0-----|-----------0-----|
D-|-----2-------2---|-----0-------0---|
A-|-0---------------|-----------------|
E-|-----------------|-3---------------|

    Am                G*                
E-|-----------------|-----------------|
B-|-------0---------|-----------------|
G-|-----------0-----|-----------------|
D-|-----2-------2---|-----------------|
A-|-0---------------|-----------------|
E-|-----------------|-3---------------|

1er couplet (Elisa Tovati)

    Am                G*                
E-|-----------------|-----------------| (x4)
B-|-------0---------|-------0---------|
G-|-----------0-----|-----------0-----|
D-|-----2-------2---|-----0-------0---|
A-|-0---------------|-----------------|
E-|-----------------|-3---------------|
    Il nous faut du temps
    Des insomnies
    Des engueulades
    Des retrouvailles
    À la bougie
    Il nous faut du vent
    Un peu de pluie

    C                C        CM9/B     Am                Am
E-|-----------------|-----------------|-----------------|-----------------| 
B-|-------1---------|-----------------|-------0---------|-------0---------| 
G-|-----------0-----|-------0-------0-|-----------0-----|-----------0-----| 
D-|-----2-------2---|-----2-------0---|-----2-------2---|-----2-------2---| 
A-|-3---------------|-3-------2-------|-0---------------|-0---------------| 
E-|-----------------|-----------------|-----------------|-----------------| 
    De longues balades
    Et pas de bruit

    Em9(no 5)/D         G*
E-|-------------------|-----------------|
B-|---------3---------|-----------------|
G-|-------------0-----|-----------------|
D-|-------4-------4---|-----------------|
A-|-3s5-------------5-|-----------------|
E-|-------------------|-3---------------|
    Non pas de bruit

2ème couplet (Tom Dice)

    Am                G*                
E-|-----------------|-----------------| (x3)
B-|-------0---------|-------0---------|
G-|-----------0-----|-----------0-----|
D-|-----2-------2---|-----0-------0---|
A-|-0---------------|-----------------|
E-|-----------------|-3---------------|
    I know what you need
    I'm thinking of us
    We're in a bar
    People are just
    Looking at you
    As usually
    Why do you care

    Am                
E-|-----------------|
B-|-------0---------|
G-|-----------0-----|
D-|-----2-------2---|
A-|-0---------------|
E-|-----------------|
    Is it too much

    C                C        CM9/B     Am                Am
E-|-----------------|-----------------|-----------------|-----------------| 
B-|-------1---------|-----------------|-------0---------|-------0---------| 
G-|-----------0-----|-------0-------0-|-----------0-----|-----------0-----| 
D-|-----2-------2---|-----2-------0---|-----2-------2---|-----2-------2---| 
A-|-3---------------|-3-------2-------|-0---------------|-0---------------| 
E-|-----------------|-----------------|-----------------|-----------------| 
    I need to know

    Em9(no 5)/D        
E-|-------------------|
B-|---------3---------|
G-|-------------0-----|
D-|-------4-------4---|
A-|-3s5-------------5-|
E-|-------------------|
    If I'm needed

1er refrain 

    Em                C                 G*                D
E-|-----------------|-----------------|-----------------|-----------2-----| (x2)
B-|-----------0-----|-----------1-----|-----------0-----|-------3---------| 
G-|-------0---------|-------0---------|-------0---------|-----2-----------| 
D-|-----2-----------|-----2-----------|-----0-----------|-0---------------| 
A-|-----------------|-3---------------|-----------------|-----------------| 
E-|-0---------------|-----------------|-3---------------|-----------------| 
    You and I
    Close together
    A new dimension
    But if we dare
    We will succeed

Instrumental

    Am                G*                
E-|-----------------|-----------------| (x2)
B-|-------0---------|-------0---------|
G-|-----------0-----|-----------0-----|
D-|-----2-------2---|-----0-------0---|
A-|-0---------------|-----------------|
E-|-----------------|-3---------------|

3er couplet (Elisa Tovati)

    Am                G*                
E-|-----------------|-----------------| (x3)
B-|-------0---------|-------0---------|
G-|-----------0-----|-----------0-----|
D-|-----2-------2---|-----0-------0---|
A-|-0---------------|-----------------|
E-|-----------------|-3---------------|
    Il nous faut aussi
    Un jean usé
    Que l'on partage
    Deux trois secrets
    D'enfants pas sages
    Il nous faut l'envie

    Am                
E-|-----------------|
B-|-------0---------|
G-|-----------0-----|
D-|-----2-------2---|
A-|-0---------------|
E-|-----------------|
    De rendez-vous

    C                 C       CM9/B     Am                Am
E-|-----------------|-----------------|-----------------|-----------------| 
B-|-------1---------|-----------------|-------0---------|-------0---------| 
G-|-----------0-----|-------0-------0-|-----------0-----|-----------0-----| 
D-|-----2-------2---|-----2-------0---|-----2-------2---|-----2-------2---| 
A-|-3---------------|-3-------2-------|-0---------------|-0---------------| 
E-|-----------------|-----------------|-----------------|-----------------| 
    Un très grand lit
    Sans rien autour

    Em9(no 5)/D        
E-|-------------------|
B-|---------3---------|
G-|-------------0-----|
D-|-------4-------4---|
A-|-3s5-------------5-|
E-|-------------------|
    Non rien

2ème refrain

(En battement)
Em : B.B.B..
C  : H.HB.B.BH
G  : B.B.B..
D  : H.HB.B.BH

        Em   C 
 You and I
           G   D 
 Close together
           Em    C 
 A new dimension
             G               D 
 But still far from being complete
         Em   C 
 You and I
           G   D 
 Close together
           Em    C 
 A new dimension
             G              D 
 But if we dare we will succeed

Pont

    Am                D                                  
E-|-----------------|-----------2-----|
B-|-----------1-----|-------3---------| 
G-|-------2---------|-----2-----------| 
D-|-----2-----------|-0---------------|
A-|-0---------------|-----------------|
E-|-----------------|-----------------|
   Du temps, l'envie
   Pas de bruit

    G*                C                 Am                D                 
E-|-----------------|-----------------|-----------------|-----------2-----|
B-|-----------0-----|-----------1-----|-----------1-----|-------3---------| 
G-|-------0---------|-------0---------|-------2---------|-----2-----------| 
D-|-----0-----------|-----2-----------|-----2-----------|-0---------------|
A-|-----------------|-3---------------|-0---------------|-----------------|
E-|-3---------------|-----------------|-----------------|-----------------|
    La nuit
    Le jour
    Sans rien autour

3ème refrain

    Em                C                 G*                D
E-|-----------------|-----------------|-----------------|-----------2-----|
B-|-----------0-----|-----------1-----|-----------0-----|-------3---------| 
G-|-------0---------|-------0---------|-------0---------|-----2-----------| 
D-|-----2-----------|-----2-----------|-----0-----------|-0---------------| 
A-|-----------------|-3---------------|-----------------|-----------------| 
E-|-0---------------|-----------------|-3---------------|-----------------| 
    (Tom Dice)
    Toi et moi
    C'est presque ça
    C'est tellement déjà
    Il nous manque si peu de choses

    Em                C                 G*                D
E-|-----------------|-----------------|-----------------|-----------2-----|
B-|-----------0-----|-----------1-----|-----------0-----|-------3---------| 
G-|-------0---------|-------0---------|-------0---------|-----2-----------| 
D-|-----2-----------|-----2-----------|-----0-----------|-0---------------| 
A-|-----------------|-3---------------|-----------------|-----------------| 
E-|-0---------------|-----------------|-3---------------|-----------------| 
    (Elisa Tovati)
    Toi et moi
    C'est presque ça
    C'est tellement déjà
    Nous serons ce que l'on ose

Final

(En battement) 
Em : B.B.B..
C  : H.HB.B.BH
G  : B.B.B..
D  : H.HB.B.BH

        Em   C 
 You and I
           G   D 
 Close together
           Em    C 
 A new dimension
             G              D 
 But if we dare we will succeed

   Em   C 
                   G   D 
 C'est tellement déjà
         Em   C 
 Toi et moi
             G             D 

         Em        C 
 You and I (toi et moi)
            G               D 
 Close together (tellement déjà)
            Em     C 
 A new dimension
         G               D        Em 
 Nous serons ce que l'on ose   (x3)

Pas encore de commentaires.

Laisser un commentaire