Imagine (John Lennon)

Chanson de 1971 de l’album Imagine, le second en solo de John Lennon.

Une superbe chanson très facile.

Conseils pour le pré-refrain :

  • Faire le Dm avec le majeur, l’index et l’annulaire, pour enchainer le Dm/C en ajoutant juste l’auriculaire.
  • Faire le G avec l’index, l’annulaire et l’auriculaire. Très pratique en venant du Dm/C et enchainer le G7.

Les difficultés  :

  • Le Fa en mini barré
  • Le mini-riff de l’intro & couplets
  • utiliser l’index pour le Dm/C et le G
  • La ronde G7 dans le pré-refrain (bien compter)

Au doigts ou au mediator ?

Personnellement, je ne suis généralement pas à l’aise avec le médiator, mais pour le coup cette chanson est parfaite pour insister avec lui. La chanson est lente ce qui aide et surtout la précision est meilleur pour attraper les cordes graves seules et faire le mini-riff.

Vidéo

La vidéo qui m’a permis d’établir le tablature.

http://www.youtube.com/watch?v=AST3RA-x9oA

Merci Eric Legaud de Galagomusic

Tablature

Tempo à la noire : 65.

Intro & Couplets

C                           Cmaj7     F                    
E-|-0-------0-------0-------0-------|-1-------1-------1---------------| 
B-|-1-------1-------1-------0-------|-1-------1-------1-----------0---|
G-|-0-------0-------0-------0-------|-2-------2-------2-------2-3-----| (hammer-on ici)
D-|-2-------2-------2-------2-------|-3---3---3---3---3---3-----------|
A-|-3---3---3---3---3---3---3---3---|---------------------------------|
E-|---------------------------------|---------------------------------|

Intro    : x2
Couplets : x4

Pre-refrain

    F               F/E               Dm              Dm/C                      
E-|-1-------0-------1-------1-------|-1-------1-------1-------1-------| 
B-|-1-------1-------1-------1-------|-3-------3-------3-------3-------|
G-|-2-------2-------2-------2-------|-2-------2-------2-------2-------|
D-|-3---3---3---3---2---2---2-------|-0---0---0---0---0-------0-------|
A-|---------------------------------|-----------------3---3---3---3---|
E-|---------------------------------|---------------------------------|
    G                                 G7 (faire durer c'est une ronde)                               
E-|-3-------3-------3-------3-------|-1-------------------------------| 
B-|-0-------0-------0-------0-------|-0-------------------------------|
G-|-0-------0-------0-------0-------|-0-------------------------------|
D-|-0-------0-------0-------0-------|-0-------------------------------|
A-|-2-------2-------2-------2-------|-2-------------------------------|
E-|-3---3---3---3---3---3---3---3---|-3-------------------------------|

Refrain

    F               G                 C               E                      
E-|-1-------0-------3-------3-------|-0-------0-------0-------0-------| 
B-|-1-------1-------0-------0-------|-1-------1-------0-------0-------|
G-|-2-------2-------0-------0-------|-0-------0-------1-------1-------|
D-|-3---3---3---3---0-------0-------|-2-------2-------2-------2-------|
A-|-----------------2-------2-------|-3---3---3---3---2-------2-------|
E-|-----------------3---3---3---3---|-----------------0---0---0---0---| x3
    F               G                 C                                     
E-|-1-------0-------3-------3-------|-0-------------------------------| 
B-|-1-------1-------0-------0-------|-1-------------------------------|
G-|-2-------2-------0-------0-------|-0-------------------------------|
D-|-3---3---3---3---0-------0-------|-2-------------------------------|
A-|-----------------2-------2-------|-3---------------0-------2-------|
E-|-----------------3---3---3---3---|---------3-----------------------|

Paroles

Intro
C            Cmaj7       F
C            Cmaj7       F

Couplet
C            Cmaj7       F
 Imagine there's no heaven
C          Cmaj7    F
 It's easy if you try
C       Cmaj7  F
 No hell below us
C        Cmaj7   
 Above us only sky

Pre-Refrain
F        F/E      Dm  Dm/C
 Imagine all the people
G      G7 (hold)
living for today

Couplet 
C            Cmaj7        F
Imagine there's no countries
C            Cmaj7   F
It isnt hard to do
C              Cmaj7   F 
Nothing to kill or die for
C        Cmaj7  F
No religion too

Pre-Refrain
F           F/E         Dm  Dm/C
Imagine all the people
G      G7 (hold)
living life in peace

Refrain
F            G               C      E
You may say I’m a dreamer
F            G               C   E
but I’m not the only one
F                   G          C   E
I hope some day you'll join us
F            G                      
And the world will
C
live as one

Couplet 
C          Cmaj7   F
Imagine no possesions
C            Cmaj7    
I wonder if you can
C                  Cmaj7        F
No need for greed or hunger
C            Cmaj7       F
A brotherhood of man

Pre-Refrain
F           F/E         Dm  Dm/C
Imagine all the people
G      G7 (hold)
Sharing all the world

Refrain
F            G               C        E
You may say I’m a dreamer
F            G                C   E
but I’m not the only one
F                   G            C    E
I hope some day you'll join us
F            G                      
And the world will
C
live as one

Pas encore de commentaires.

Laisser un commentaire