Lucie (Pascal Obispo)

« Lucie » chanson de Pascal Obispo et Lionel Florence sortie en 1996 sur l’album « Superflux ». Chanson en arpèges dont la partie la plus compliquée est l’introduction qui est également utilisée en début de couplet et comme pont après les refrains.

Dans la tablature qui suit, certains accords n’ont pas de nom et sont indiqués par « ? ». Je conseil de bien travailler au métronome et de bien réfléchir aux enchainements d’accords pour les simplifier au maximum.

Vidéo

La vidéo tutoriel de RATPSinger http://www.youtube.com/watch?v=-4wLpXgka3U et sa reprise complète http://www.youtube.com/watch?v=iElrBZjJ5ss

Tablature

Capo : 3

Tempo à la noire : 126 (pas très rapide car que des noires)

Intro

 Em/B      ?         D         ?         C         ?         C         B7 
|-3-----3-|-2---7---|-2-----2-|-0---0---|-0-----0-|-0-------|-0-----0-|-0---2---|
|-----5---|---0-----|-----3---|---------|-----1---|---0-4---|-----1---|-------0-|
|---4-----|---------|---2-----|---2---2-|---0-----|-------0-|---0-----|---2-----|
|---------|-0-------|-0-------|-4-------|---------|---------|---------|---------|
|---------|---------|---------|---------|-3-------|-2---2---|-3-------|-2-------|
|-0-------|---------|---------|---------|---------|---------|---------|---------|

Couplet

 Em/B      ?         D         ?         C         ?         C         B7 
|-3-----3-|-2---7---|-2-----2-|-0---0---|-0-----0-|-0-------|-0-----0-|-0---2---| (x2)
|-----5---|---0-----|-----3---|---------|-----1---|---0-4---|-----1---|-------0-|
|---4-----|---------|---2-----|---2---2-|---0-----|-------0-|---0-----|---2-----|
|---------|-0-------|-0-------|-4-------|---------|---------|---------|---------|
|---------|---------|---------|---------|-3-------|-2---2---|-3-------|-2-------|
|-0-------|---------|---------|---------|---------|---------|---------|---------|

 G         D         Em        C
|-3-----3-|-2-----2-|-0-----0-|-0-----0-| (x2)
|-----0---|-----3---|-----0---|-----1---|
|---0-----|---2-----|---0-----|---0-----|
|---------|-0-------|---------|---------|
|---------|---------|---------|-3-------|
|-3-------|---------|-0-------|---------|

 B7
|-0---2---|
|-------0-|
|---2-----|
|---------|
|-2-------|
|---------|

Refrain

 G         D         Em        C
|-3-----3-|-2-----2-|-0-----0-|-0-----0-|
|-----0---|-----3---|-----0---|-----1---|
|---0-----|---2-----|---0-----|---0-----|
|---------|-0-------|---------|---------|
|---------|---------|---------|-3-------|
|-3-------|---------|-0-------|---------|
 D         Am        C         B7
|-2-----2-|-0-------|-0-----0-|-0---2---|
|-----3---|-----1---|-----1---|-------0-|
|---2-----|---2-----|---0-----|---2-----|
|-0-------|---------|---------|---------|
|---------|-0-------|-3-------|-2-------|
|---------|---------|---------|---------|

Pont

 Em/B      ?         D         ?         C         ?         C         B7 
|-3-----3-|-2---7---|-2-----2-|-0---0---|-0-----0-|-0-------|-0-----0-|-0---2---|
|-----5---|---0-----|-----3---|---------|-----1---|---0-4---|-----1---|-------0-|
|---4-----|---------|---2-----|---2---2-|---0-----|-------0-|---0-----|---2-----|
|---------|-0-------|-0-------|-4-------|---------|---------|---------|---------|
|---------|---------|---------|---------|-3-------|-2---2---|-3-------|-2-------|
|-0-------|---------|---------|---------|---------|---------|---------|---------|

Paroles

Intro: Em/B ? D ? C ? C B7 

Couplet:
   Em     ?                  D 
 Lucie, Lucie, c'est moi, je sais!
            ?                 C              ? 
 Il y a des soirs comme ça où tout s'écroule autour de vous
 C            B7                    Em 
   Sans trop savoir pourquoi toujours
          ?          D             ? 
 Regarder devant soi,  sans jamais baisser les bras
    C               ?                 ?           B7 
 Je sais, c'est pas l'remède à tout,  mais faut s'forcer parfois
   G            D              Em         C 
 Lucie, Lucie, dépêche-toi, on vit, on ne meurt qu'une fois!
 G         D              Em              C     B7 
   Et on a l'temps de rien,   que c'est déjà la fin

Refrain:
     G                          D     Em                       C 
 Mais c'est pas marqué dans les livres, qu'le plus important à vivre
 D                        Am       C     B7 
  Est de vivre au jour le jour, le temps,  c'est de l'amour

Pont: Em/B ? D ? C ? C B7 

 Même si je n'ai pas le temps d'assurer mes sentiments
 J'ai en moi, oh, de plus en plus fort, des envies d'encore
 Tu sais, non ,je n'ai plus à coeur de réparer mes erreurs ou de
 Refaire ce qui n'est plus à faire, de revenir en arrière
 Lucie, Lucie, t'arrête pas, on ne vit qu'une vie à la fois!
 A peine le temps de savoir qu'il est déjà trop tard

 Mais c'est pas marqué dans les livres, le plus important à vivre
 Est de vivre au jour le jour; le temps, c'est de l'amour

Pont: Em/B ? D ? C ? C B7 

 Ouh, Lucie, j'ai fait le tour de tant d'histoires d'amour!
 J'ai bien, bien assez de courage pour tourner d'autres pages
 Sache que le temps nous est compté; faut jamais se retourner,
 En se disant que c'est dommage d'avoir passé l'âge
 Lucie, Lucie, t'encombre pas de souvenirs, de choses comme ça!
 Aucun regret ne vaut le coup, pour qu'on le garde en nous

 Mais c'est pas marqué dans les livres, le plus important à vivre
 Est de vivre au jour le jour; le temps, c'est de l'amour

 C'est pas marqué dans les livres, le plus important à vivre
 D                       Am       C                  B7   Em 
 Est de vivre au jour le jour; le temps, c'est de l'amour

Pas encore de commentaires.

Laisser un commentaire