Si maman si (France Gall)

De l’album Dancing disco sorti en 1978. Paroles et musique de Michel Berger.

Tout en arpège assez facile.

Les difficultés toutes relatives :

  • Pincer simultanément les cordes de La et de Ré et enchainer l’arpège
  • L’accord Am/C (au début, rester sur Am)
  • L’accord E7/G# (au début, rester sur E7)
  • Enchainer la mesure Am du couplet depuis la mesure précédente

Travailler lentement avec et sans métronome.

Vidéo

La première vidéo d’une série de 3 qui m’a permis d’établir le tablature.

http://www.youtube.com/watch?v=4VOlmRQfsc0

Tablature

Tempo à la noire : 110.

Capo : 3

Intro

    Am                E                 Am/C              E
E-|-----------------|-----------------|-----------------|-----------------| 
B-|-----1-----1-----|-----0-----0-----|-----1-----1-----|-----0-----0-----|
G-|---2-----2-----2-|---1-----1-----1-|---2-----2-----2-|---1-----1-------| 
D-|-2-----2-----2---|-2-----2-----2---|-2-----2-----2---|-2-----2-----2---|
A-|-0---------------|-2---------------|-3---------------|-2---------------|
E-|-----------------|-----------------|-----------------|-----------------|

Couplet

    Am                D/F#              Dm/F              Esus4   E
E-|-----------------|-----------------|-----------------|-------0-------0-| 
B-|-----1-----1-----|-------3-----3---|-------3-----3---|-----0-------0---|
G-|---2-----2-----2-|-----2-----2-----|-----2-----2-----|---2-------1-----| 
D-|-2-----2-----2---|---0-----0-----0-|---0-----0-----0-|-----------------|
A-|-0---------------|-----------------|-----------------|-----------------|
E-|-----------------|-2---------------|-1---------------|-0-------0-------|

    Am                D/F#              Dm/F              Esus4   E
E-|-----------------|-----------------|-----------------|-------0-------0-| 
B-|-----1-----1-----|-------3-----3---|-------3-----3---|-----0-------0---|
G-|---2-----2-----2-|-----2-----2-----|-----2-----2-----|---2-------1-----| 
D-|-2-----2-----2---|---0-----0-----0-|---0-----0-----0-|-----------------|
A-|-0---------------|-----------------|-----------------|-----------------|
E-|-----------------|-2---------------|-1---------------|-0-------0-------|

    G                 E7/G#             
E-|-----------------|---------0-------| 
B-|-------0-------0-|-------0---------|
G-|-----0-------0---|-----1-----------| 
D-|---0-------0-----|---0-------------|
A-|-----------------|-----------------|
E-|-3-------3-------|-4---------------|

Refrain

    C                 E7/B              Am                E7
E-|-----------------|-----------------|-----------------|-----------------| 
B-|-------1-------1-|-------0-------0-|-------1-------1-|-------0-------0-|
G-|-----0-------0---|-----1-------1---|-----2-------2---|-----1-------1---| 
D-|---2-------2-----|---0-------0-----|---2-------2-----|---0-------0-----|
A-|-3-------3-------|-2-------2-------|-0-------0-------|-----------------|
E-|-----------------|-----------------|-----------------|-0-------0-------|

    C                 E7/B              Am                E7
E-|-----------------|-----------------|-----------------|-----------------| 
B-|-------1-------1-|-------0-------0-|-------1-------1-|-------0-------0-|
G-|-----0-------0---|-----1-------1---|-----2-------2---|-----1-------1---| 
D-|---2-------2-----|---0-------0-----|---2-------2-----|---0-------0-----|
A-|-3-------3-------|-2-------2-------|-0-------0-------|-----------------|
E-|-----------------|-----------------|-----------------|-0-------0-------|

    E7
E-|-----------------| 
B-|-------0-------0-|
G-|-----1-------1---| 
D-|---0-------0-----|
A-|-----------------|
E-|-0-------0-------|

Paroles

Am                                          D/F#
Tous mes amis sont partis
Dm/F                                    Esus4  E
Mon coeur a déménagé
Am                                          D/F#
Mes vacances c’est toujours Paris
Dm/F                             Esus4  E
Mes projets c’est continuer
G                                         E7/G#
Mes amours c’est inventer

C
Si, maman, si
E7/B
Si, maman, si
Am                                             E7
Maman, si tu voyais ma vie
          C
Je pleure comme je ris
E7/B
Si, maman, si
Am                                            E7
Mais mon avenir reste gris
                              E7
Et mon coeur aussi

Et le temps défile comme un train
Et moi je suis à la fenêtre
Je suis si peu habile que demain
Le bonheur passera peut-être
Sans que je sache le reconnaître

Si, maman, si
Si, maman, si
Maman, si tu voyais ma vie
Je pleure comme je ris
Si, maman, si
Mais mon avenir reste gris
Et mon coeur aussi

Mon coeur est confortable, bien au chaud
Et je lasse passer le vent
Mes envies s’éteignent, je leur tourne le dos
Et je m’endors doucement
Sans chaos ni sentiment

Si, maman, si
Si, maman, si
Maman, si tu voyais ma vie
Je pleure comme je ris
Si, maman, si
Mais mon avenir reste gris
Et mon coeur aussi

Si, maman, si
Si, maman, si
Maman, si tu voyais ma vie
Je pleure comme je ris
Si, maman, si
Mais mon avenir reste gris
Et mon coeur aussi

Pas encore de commentaires.

Laisser un commentaire