Tout le monde y pense (Francis Cabrel)

« Tout le monde y pense » est une chanson de l’album Sarbacane de 1989. Cet album marque une étape dans la carrière de Francis Cabrel. C’est son plus grand succès (plus de 2.000.000 d’exemplaires vendus en France). A partir de cet album, il adopte un rythme quinquennale quasi immuable.

Donc pour cette chanson, la version présentée est tout en arpège. Un arpège très facile mais un peu rapide.

Les difficultés :

  • le tempo à 130
  • le Fa barré (mais il faut y aller)
  • Le Sol (320003) à faire avec l’auriculaire, l’annulaire et le majeur

A cause du Fa barré, je donne une difficulté de niveau 3.

Conseils :

  • travailler avec un métronome.
  • faire le G (320003) avec l’auriculaire, l’annulaire et le majeur. C’est très pratique en venant du Em et du F et pour passer au C/E

Astuce pour le Fa barré :

Le problème pour le Fa barré, c’est surtout la vitesse nécessaire pour le réaliser en venant du La mineur. Si on regarde bien, on peut commencer à bouger les doigts juste avant de jouer la dernière corde de Mi. Cela donne entre 1/2 temp et 1 temp. C’est chaud !

Pour résoudre le problème, il est possible de ne pas faire un Fa barré (133211), mais un accord qui pourrait s’appeler A minor add A# over F (whow !). Bon, ça se note plus simplement 112211. En venant du La mineur, il n’y a qu’à tendre l’index pour le barré sans bouger les autres doigts. Pour l’arpège, le résultat est le même !

Ceci dit, un jour, il faudra bien les faire avec de la vitesse ces maudits barrés. Donc …

Vidéo

C’est la vidéo qui m’a servie pour la transcription ci-dessous. Une superbe version, très très bien chantée. Bravo !

http://www.youtube.com/watch?v=Af7O3itZDl8

Tablature

Je ne détail ici que les couplets. Pour l’introduction, les liaisons et la fin, voir plus bas dans les paroles.

Le principe est que les Am, C/E, Bb/D et F se répètent toujours 2 fois.

Les 2 premiers couplets s’enchainent alors que entre les suivants, on utilise la séquence du couplet plus ou moins complètement.

Tempo à la noire : 130

Capo : 1

    Am                Am                Em                G
E-|-------0-------0-|-------0-------0-|-------0-------0-|-------3-------3-|
B-|-----1-------1---|-----1-------1---|-----0-------0---|-----3-------3---|
G-|---2-------2-----|---2-------2-----|---2-------2-----|---0-------0-----|
D-|-----------------|-----------------|-----------------|-----------------|
A-|-0-------0-------|-0-------0-------|-----------------|-----------------|
E-|-----------------|-----------------|-0-------0-------|-3-------3-------|

    Am                Am                Em                G
E-|-------0-------0-|-------0-------0-|-------0-------0-|-------3-------3-|
B-|-----1-------1---|-----1-------1---|-----0-------0---|-----3-------3---|
G-|---2-------2-----|---2-------2-----|---2-------2-----|---0-------0-----|
D-|-----------------|-----------------|-----------------|-----------------|
A-|-0-------0-------|-0-------0-------|-----------------|-----------------|
E-|-----------------|-----------------|-0-------0-------|-3-------3-------|

    C/E               C/E               Bb/D              Bb/D               
E-|-------0-------0-|-------0-------0-|-------1-------1-|-------1-------1-|
B-|-----1-------1---|-----1-------1---|-----3-------3---|-----3-------3---|
G-|---0-------0-----|---0-------0-----|---3-------3-----|---3-------3-----|
D-|-----------------|-----------------|-0-------0-------|-0-------0-------|
A-|-3-------3-------|-3-------3-------|-----------------|-----------------|
E-|-----------------|-----------------|-----------------|-----------------|

    Am                Am                F                 F
E-|-------0-------0-|-------0-------0-|-------1-------1-|-------1-------1-|
B-|-----1-------1---|-----1-------1---|-----1-------1---|-----1-------1---|
G-|---2-------2-----|---2-------2-----|---2-------2-----|---2-------2-----|
D-|-----------------|-----------------|-----------------|-----------------|
A-|-0-------0-------|-0-------0-------|-----------------|-----------------|
E-|-----------------|-----------------|-1-------1-------|-1-------1-------|

Paroles

Am Em G
Am Em G

Am
Tout le monde y pense,
Em                     G
Les hommes, les anges, les vautours,
Am
Y'a plus de distances,
Em                G
Personne qu'y ait les bras trop courts,
C/E
Tout le monde espère,
Bb/D
Même à l'arrière des arrière-cours,
Am
Tout le monde veut son billet retour,
F                           
D'amour, d'amour, d'amour, d'amour.
Am
Son éclat de chance,
celui qui vous brûle, vous inonde,
Mais le ciel s'en balance,
Puisqu'il y en a pas pour tout le monde,
Y'a des gens plein les urgences,
Sous les lumières des abat-jour,
Qui attendent leur billet retour,
                                    Am  
D'amour, d'amour, d'amour, d'amour, d’amour ...

Em G Am Em G 

Ces anges qui dansent,
Sur ces pistes trempées d'alcools,
Dans ces caves immenses,
Les cheveux collés aux épaules,
S'envolent en silence,
Et s'éparpillent au petit-jour,
En cherchant des billets retour,
                                    Am
D'amour, d'amour, d'amour, d'amour, d’amour ...

Em G Am Em G 

Ces femmes qui s'avancent,
En tenant au bout de leurs bras,
Ces enfants qui lancent,
Des pierres vers les soldats,
C'est perdu d'avance,
Les cailloux sur des casques lourds,
Tout ça pour des billets retour,
                                    Am     
D'amour, d'amour, d'amour, d’amour, d'amour...

Em                     G              Am
Les hommes, les anges, les vautours...
Em                G                    C/E
Personne qui ait les bras trop courts...
Bb/D Am 
F               C         C
Tout le monde y pense...

Pas encore de commentaires.

Laisser un commentaire