Under (Alex Hepburn)

Chanson de 2012 interprétée par Alex Hepburn extrait de l’album Together Alone. La chanson est écrite et composée par Gary Clark et Alex Hepburn.

Chanson très simple.

Rythmique

Pour le 1er refrain, juste une ronde par accord, puis à partir du couplet :

B...B..H.HB.B.BH

ou

B...B..H.HBHB.BH

Arpège possible pour les couplets

J’ai trouvé 2 arpèges différents, les voici les 2. A vous de choisir.

Arpège 1 :

  E
|---------------------------------|
|---0-----0-----0---0-----0-----0-|
|-----0-----0---------0-----0-----|
|-------2-----2---------2-----2---|
|-2---------------2---------------|
|---------------------------------|
  C
|---------------------------------|
|---1-----1-----1---1-----1-----1-|
|-----0-----0---------0-----0-----|
|-------2-----2---------2-----2---|
|-3---------------3---------------|
|---------------------------------|
  G
|---------------------------------|
|---0-----0-----0---0-----0-----0-|
|-----0-----0---------0-----0-----|
|---------------------------------|
|-------2-----2---------2-----2---|
|-3---------------3---------------|
  ?
|---------------------------------|
|---3-----3-----3---3-----3-----3-|
|-----0-----0---------0-----0-----|
|-------4-----4---------4-----4---|
|-5---------------5---------------|
|---------------------------------|

Arpège 2 :

  E
|---------------------------------|
|-----0-------0-------0-------0---|
|---0---0---0---0---0---0---0---0-|
|-2-------2-------2-------2-------|
|---------------------------------|
|---------------------------------|
  C
|---------------------------------|
|-----1-------1-------1-------1---|
|---0---0---0---0---0---0---0---0-|
|-2-------2-------2-------2-------|
|---------------------------------|
|---------------------------------|
  G
|---------------------------------|
|-----0-------0-------0-------0---|
|---0---0---0---0---0---0---0---0-|
|-0-------0-------0-------0-------|
|---------------------------------|
|---------------------------------|
  D
|---------------------------------|
|-----3-------3-------3-------3---|
|---2---2---2---2---2---2---2---2-|
|-0-------0-------0-------0-------|
|---------------------------------|
|---------------------------------|

Vidéos

Version Capo en case 5. Très bien chanté, très bien filmé !
http://www.youtube.com/watch?v=khZUhxmdzu0

Avec l’arpège. Vidéo trop sombre domage. Jolie !
http://www.youtube.com/watch?v=lNGz5cJ6RfQ

Piano, violoncelle, guitare, voie. Superbe !
http://www.youtube.com/watch?v=3e6XTZqJff0

Tablature

Capo 1.

Tempo à la noire : 80.

Refrain
            Em
 Don't bury me
              C
 Don't let me down
                G
 Don't say it's over
                          D
 Cause that would send me under
                Em
 Underneath the ground
                  C
 Don't say those words
                                 G
 I wanna live and your words can murder
                      D             (Em)
 Only you can send me under, under, under
Couplet
 Em
 I die every time you walk away
 C                        G
 Don't leave me alone with me
           D
 See, I'm afraid
 Em
 Of the darkness and my demons
           C                       G                  D
 And the voices, sayin' nothing's gonna be okay, ... yeah
                  Em
 I feel it in my heart, soul, mind that I'm losing
 C
 You, me, you're abusing
 G                            D
 Every reason I have left to live.
[Refrain]
 Lost trust, 21 grams of soul
 All the sanity I've ever owned... gone
 But I'm still breathing
 Through the thunder, and the fire, and the madness
 Just to let you shoot me down again
 But I'm still breathing
 I feel it in my veins, skin, bones that I'm losing
 You, me, you're confusing
 Every reason that I've left to live
[Refrain]
Instrumental: C G D
Pont
 Em
 Chasing you but you don't look back
 C
 Words I threw that I can't take back
 G                                    D
 Reaching out but I can't hold on to you, no
 Em
 Chasing you but you don't look back
 C
 Words I threw that I can't take back
 G                                    D
 Reaching out but I can't hold on to you
[Refrain]
 C                          G      D
 Oh, only you can send me under, yeah.
 Em
 Under...

Pas encore de commentaires.

Laisser un commentaire